Not really blogging

A. Makelov

Lazarus piano riff tab

Lazarus by Porcupine tree is an amazing song with a haunting main riff. The latter is originally for piano, but here’s a guitar tab of what I hear (which might not be 100% accurate, but is at least easy to play). Use your ear to pick up the tempo and rhythm:

 
E||----------------------|--0-------------------|----------------------|
B||-----------------2----|-----------------3----|------------2---------|
G||------------2---------|-------2--------------|--2-------------------|
D||-------2--------------|------------2---------|-------2---------2----|
A||--0-------------------|----------------------|----------------------|
E||----------------------|----------------------|----------------------|

------------------------|----------------------|--0-------------------|
--0h----2p----0---------|-----------------0----|-----------------3----|
-------------------2----|------------1---------|-------1--------------|
------------------------|-------2--------------|------------2---------|
------------------------|--2-------------------|----------------------|
------------------------|----------------------|----------------------|

----------------------|------------------------|----------------------|
------------2---------|--0h----2p----0---------|-----------------3----|
--1-------------------|-------------------1----|------------2---------|
-------2---------2----|------------------------|-------0--------------|
----------------------|------------------------|--0-------------------|
----------------------|------------------------|----------------------|

--0-------------------|----------------------|----------------------|
-----------------3----|------------2---------|--0-------------------|
-------2--------------|--2-------------------|------------2---------|
------------0---------|-------0---------0----|-------0---------0----|
----------------------|----------------------|----------------------|
----------------------|----------------------|----------------------|

-------0--------------|----------------------|----------------------|
----------------------|--3--------------2----|------------0---------|
-----------------2----|-------2--------------|--2-------------------|
--0---------0---------|------------0---------|-------0---------0----|
----------------------|----------------------|----------------------|
----------------------|----------------------|----------------------|

----------------------||
------------0h----2---||
--1h----2-------------||
----------------------||
----------------------||
----------------------||

 

Leave a Reply

Fill in your details below or click an icon to log in:

WordPress.com Logo

You are commenting using your WordPress.com account. Log Out / Change )

Twitter picture

You are commenting using your Twitter account. Log Out / Change )

Facebook photo

You are commenting using your Facebook account. Log Out / Change )

Google+ photo

You are commenting using your Google+ account. Log Out / Change )

Connecting to %s

mathbabe

Exploring and venting about quantitative issues

Rational Altruist

Adventures of a would-be do-gooder.

Gowers's Weblog

Mathematics related discussions

What's new

Updates on my research and expository papers, discussion of open problems, and other maths-related topics. By Terence Tao

Stefan's Blog (archive, for news see blog.krastanov.org)

Most of the blog moved to blog.krastanov.org

%d bloggers like this: